imagen del día

menu

 
	Myxomatosis
Radiohead
from Hail to the Theif
tabbed by arlen b, 04/01/03
webpage: www.geocities.com/kingoftheeskimos

standard tuning

main riff (repeated with some variation):
e--------------------------------------------------------
B--------------------------------------------------------
G--------------------------------------------------------
D-----------------------------9--10----------------------
A-10--7--9--5--7--3--5--2--3-----------------------------
E--------------------------------------------------------

e--------------------------------------------------------
B--------------------------------------------------------
G--------------------------7-----------------------------
D-----------------7--5--------7--9-----------------------
A-10--7--9--5--7--------7--------------------------------
E--------------------------------------------------------

thats about it. huh. rad song, anyways, from radioheads forthcoming sixth LP.
remember, all you people who downloaded it when it was leaked on to the net
(myself included): buy the album in june! its fucking awesome.